Guitar tab for "So Serious" by "The Survival Code". Uk Rock band. London rock music. 1m Streams


Intro/ Chorus

D-----------------------------------------------------

A-----------------------------------------------------

F-----------------------------------------------------

C-----------------------------------------------------

G-----------------------------------------------------

c-9-9--8h9h8-0--5-5--4h5h4-0--22-0202--5-2-0-2-5-2-0--

D-----------------------------------------------------

A-----------------------------------------------------

F-----------------------------------------------------

C------------------------------------------7 9 7------

G------------------------------------7 8 9--------9---

c-9-9-8h9h8-0-5-5-4h5h4-0-2-2-0-2-0-2-----------------

D-----------------------------------------------------

A-----------------------------------------------------

F-----------------------------------------------------

C-----------------------------------------------------

G-----------------------------------------------------

C-9-9--8h9h8-0-5-5-4h5h4-0--2-2--0-2-0-2-7-4-0-4-7-4-0

D-----------------------------------------------------

A-----------------------------------------------------

F-----------------------------------------------------

C-----------------------------------------------------

G-----------------------------------------------------

C 9 9 8h9h8 0 5 5 4h5h 4 0 0 2 0 2 0 0 2 0 2 5 2 0 2 5

D-----------------------------------------------------

A-----------------------------------------------------

F-----------------------------------------------------

C-----------------------------------------------------

G-----------------------------------------------------

c 2 0-0 2 0 2 0 0 2 0 2 5 2 0 5 8 0 8 9

Intro Part 2 / Verse

D-----------------------------------------------------

A-----------------------------------------------------

F-----------------------------------------------------

C-----------------------------------------------------

G------12s9------9s5------4--4-5-7-5-4----------------

C--9 9-------5-5------2-2---------------7-------------

D-----------------------------------------------------

A-----------------------------------------------------

F-----------------------------------------------------

C--------------------------------------3-4------------

G------12s9-------9s5-------4---4-5-0

c 9 9--------5 5-------2-2----------------------------

D--------------------------------------------------------------------------------

A--------------------------------------------------------------------------------

F--------------------------------------------------------------------------------

C-------------------------------12-12---------------------------------9-9--------

G ----------12-12-12-12------------------12 12---------9-9-9-9---------------9-9-

C-9-9-9-9----------------9-9-9-9----------------5-5-5-5--------5-5-5-5-----------

D---------------------------------------------------

A---------------------------------------------------

F---------------------------------------------------

C-----------------------------------5-5-5-5-5-5-5h7-

G---------4-4-4-4-----------4-4-2-2-5-5-5-5-5-5-5h7-

C-2-2-2-2----------2-2-2-2----------5-5-5-5-5-5-5h7-

D---------------------------------------------------------------------------------

A---------------------------------------------------------------------------------

F---------------------------------------------------------------------------------

C------------------------------12-12-------------------------------------9-9------

G----------12-12-12-12------------------12-12-----------9-9-9-9----------------9-9

C-9-9-9-9---------------9-9-9-9-----------------5-5-5-5-----------5-5-5-5---------

D---------------------------------------------------

A---------------------------------------------------

F---------------------------------------------------

C-----------------------------------5-5-5-5-5-5-5h7-

G---------4-4-4-4-----------4-4-2-2-5-5-5-5-5-5-5h7-

C-2-2-2-2----------2-2-2-2----------5-5-5-5-5-5-5h7-

Lead

D------------------------------------------------------------------------------

A------------------------------------------------------------------------------

F------------------------------------------------------------------------------

C------------11-11-------11-11---9-7----------------9-9-------9-9-----9-7------

G------11-11--------11 11------------9-7--------9-9-------9-9---------------9-7

C-9-9--------------------------------------5-5---------------------------------

D-------------------------------------------------------------------

A-------------------------------------------------------------------

F----------------------------6-7--------------9-7-9-7-9-7-9-7-------

C------------3-4--------7-9-----------7-------------------------9-7-

G-------4-5---------------------------------------------------------

C-2-2--------------4s5---------------------9------------------------

D-----------------------------------------------------------------

A-----------------------------------------------------------------

F----------------------------------------------------------7777777

C------9-7-9-7-9-7-9-7------------3-4----------------------6666666

G-----------------------9-7--------------5-4-2--------7-9---------

C-5-5-------------------------2-2-----------------5-5-------------




4 views0 comments